Saturday, 12 October 2013

Guitar chords for Pani da rang Vicky Donor

Pani Da Rang - Vicky Donor

----0-------0------------------------------------|

-----3--------3--------3-0---------3-0-----------|

---0---0----0--0-----0---0------0---0------------|

-2---------2--------0----------0-----------------|

-------------------------------------------------|

-------------------------------------------------|

above twice

-0-----0---------|

-1-----3---------|

-0-----0---------|

-------------------|

-------------------|

-------------------|

then strum Em

[Em]Pani da rang [D]vekh ke,

[Em]Pani da rang [D]vekh ke,

[Em]Pani da rang [D]vekh ke,

[C]Akhiyan cho [D]hanjhu rul [Em]de (just strum each chord once for this line)

[C]Akhiyan cho [D]hanjhu rul [Em]de(normal strumming)

[C]Akhiyan cho [D]hanjhu rul [Em]de

[C] [D] [Em]

[Em]Mahiya na aaya mera, [D]mahiya na [Em]aaya

[Em]Mahiya na aaya mera, [D]mahiya na [Em]aaya

[C]Ranjhna na aaya mera,[Em]mahiya na aaya

[Em]Mahiya na aaya mera, [D]Ranjhna na [Em]aaya..

[Em]Akhan da noor [D]vekh ke,

[Em]Akhan da noor [D]vekh ke,

[C]Akhiyan cho [D]hanjhu rul [Em]de (just strum each chord once for this line)

[C]Akhiyan cho [D]hanjhu rul [Em]de(normal strumming)

[C]Akhiyan cho [D]hanjhu rul [Em]de

[C] [D] [Em]

[Em]Kamli ho gayi tere bina, [D]aaja ranjhan [Em]mere

[Em]Kamli ho gayi tere bina, [D]aaja ranjhan [Em]mere

[C]Baarish barkha [D]sab kuch beh gayi,[Em]Aaya ni jind mere

[C]Baarish barkha [D]sab kuch beh gayi,[Em]Aaya ni jind mere

[Em]Akhan da noor [D]vekh ke,

[Em]Akhan da noor [D]vekh ke,

[C]Akhiyan cho [D]hanjhu rul [Em]de (just strum each chord once for this line)

[C]Akhiyan cho [D]hanjhu rul [Em]de(normal strumming)

[C]Akhiyan cho [D]hanjhu rul [Em]de

[C] [D] [Em]

[single strums]

[Em]Kothe utte beh ke [D]akhiyaan milaunde

[C]Na jaana [D]main tu kabhi [Em]chod..

[Em]Tere utte mardi, [D]pyaar tenu kardi

[C]Milega tu[D]jhe na koi [Em]aur

[finger picking from the beginning]

Tu bhi aa sabko chod ke

Tu bhi aa sabko chod ke

Mere [C]Akhiyan cho [D]hanjhu rul [Em]de (just strum each chord once for this line)

[C]Akhiyan cho [D]hanjhu rul [Em]de(normal strumming)

[C]Akhiyan cho [D]hanjhu rul [Em]de

[C] [D] [Em]

[Em]Pani da rang [D]vekh ke,

[Em]Pani da rang [D]vekh ke,

[Em]Pani da rang [D]vekh ke,

[C]Akhiyan cho [D]hanjhu rul [Em]de (just strum each chord once for this line)

[C]Akhiyan cho [D]hanjhu rul [Em]de(normal strumming)

[C]Akhiyan cho [D]hanjhu rul [Em]de

[C] [D] [Em]



3 Doors Down - Here without you - Away From The Sun

3 Doors Down - Here without you - Away From The Sun


Am [0,0,2,2,1,0]
G  [3,2,0,0,0,3]
F  [1,3,3,2,1,1]
C  [0,3,2,0,1,0]

[Intro = Am F G]

Intro/Verse                                                  
                                                                   
   Am              F       G       Am               G            
e--------------------------------------------------------------------
B------1--0--0-1---------------0-------1--0--0-1--------0--1--0-1/3--
G-----2-2--2--2-2-----2------0--0-----2-2--2--2-2------0-0--0--0-----
D----2---2--2----2---3-3------0--0---2---2--2----2----0---0--0-------
A--0--------------0-3---3---2------0---------------0-2---------------
E------------------1-------3------------------------3----------------



CHORUS  Repeat 2X'S
   C                                    G                            Am
e----------------1-0-----------3--1-0------------------------
B----1-3--1--1------3-1-----0---------3-----1--3--1-3-1-0-1--
G---0-0-0--0--0-----------0--0------------2--2--2--2---------
D--------2--2------------0-0--0--0-0-0---2-2--2--2-----------
A--3--------------------2---------------0--------------------
E------------------------------------------------------------
                                         
                                         
   F      G                
e-------------------
B-----1--------0----
G----2-2-----0--0--- 
D---3---3-----0--0-- 
A--3--------2------- 
E---------3--------- 

play second time through chorus
  Am               G              Am                        F            G
e----------------------------------------------------------------
B-----1--0--0-1--------0--0--1/3-----1--0--0-1--------------0----
G----2-2--2--2-2------0--0--0-------2-2--2--2-2-----2-----0--0---
D---2---2--2----2----0-------------2---2--2----2---3-3-----0--0--
A-0--------------0--2------------0--------------0-3---3--2-------
E------------------3-----------------------------1------3--------



         Am                              G                                   
A hundred days have made me older Since the last time that I saw your
          Am   F G
pretty face,
             Am                                                        G
A thousand lies have made me colder, And I don't think I can look at this the same
Am                                       G
An all the miles that separate,
Am                                      F                              G
They Disappear now when I'm dreamin' of your face
     
CHORUS
C                                          G                                                         Am
I'm here without you baby, But you're still on my lonely mind
                                 F         G                              C
I think about you baby and I dream about you all the time
                                             G                                                               Am
I'm here without you baby, But you're still with me in my dreams,
      F                      G                         Am   G                Am F G
And tonight, there's only you and me  yeah.

          Am                                            G                                                                        Am  F  G
The miles just keep rollin', As the people leave their way to say hello
                          Am                                        G                                                           Am
I've heard this life is overrated, But I hope that it gets better as we go
F         G
hooh yeah yeah.


CHORUS

Am                     C                                G
Everything I know, and anywhere I go
                                            F                             
It gets hard but it won't take away my love,
Am                                       C                                             G
And when the last one falls, when it's all said and done.
                                            F                                                           C             G           Am  F G

It gets hard but it won't take, away, my love, woah oh Woah    wo-oh